Pg04_lVvu0jrkrH7X234tYneV1I DiFFnet Co. Store p-5e5ZqvDNRh-Tw

Saturday, March 22, 2014

Coffee? Yes..and so much more

Got Coffee ?We Do!!

      Find us on faceBook       

  Click on any picture to learn more






And so much more.. 

Star Trek Into Darkness

Star Wars Trilogy Episodes IV-VI (Blu-ray + DVD)Product DetailsVelcro Reusable Self-Gripping Cable Ties, 0.5 Inches x 8 Inches Long, Black, 100 Ties per Pack (91140)



 Minecraft - Xbox 360Honey Nut Cheerios Cereal, 12.25 Ounce (Pack of 4)   LEGO Movie 70801 Melting RoomFender Champion 40, Guitar Amplifier, Black

 You name it We got it! 

Saturday, March 8, 2014

William George Huggins my Grandad ,I'll Miss You.

We lost a great man last night, William George Huggins .Beloved husband,father,grandad and great grandad.He worked hard to take care of his family and to make sure we all had the tools to navigate this crazy life.He was my hero ,in my younger years (preteen)he taught me the use of tools the love of sports and the Importance of reading and self education. he took me to dodger games and would even take me to work ,When I was 16 I had the privilege to get a summer job with him. He even taught me how to drive when I was 5 years old,coming back from Thrifty's one night after getting some Ice cream. I'll miss you dearly , I am so proud to have had you as my grandad . Now you are part of Everything , and therefore always with us , God truly blessed us all by giving you to the world .All my Love,Robert

Wednesday, September 18, 2013

Star Trek is here , Hockey Is coming ......

DiFFnet co. 
                                                               STAR TREK

Is that R2D2 ?




                                                                  HOCKEY

Product Details
GO RANGERS !!!
                           

Friday, March 8, 2013

Trampled Under Foot

       LeD ZePPeLiN 'S
Trampled Under Foot

                               To Hear Zepp like you have never Heard them Before.....
RSL

Rogersound Labs

        For The Audiofile ,The Best Ever Systems.
             The  Leader In Sound Technology !
SPEAKERS THAT MAGAZINES AND CUSTOMERS ARE RAVING ABOUT AT UNBEATABLE DIRECT PRICES!
       Click Here For The Latest
                                           





Greased and slicked down fine, groovy leather trim
I like the way you hold the road, mama, it ain't no sin

Talkin' 'bout love [X3]

Trouble-free transmission, helps your oil's flow
Mama, let me pump your gas, mama, let me do it all

Talkin' 'bout love [X3]

Dig that heavy metal underneath your hood
Baby, I could work all night, believe I've got the perfect tools

Talkin' 'bout love [X3]

A model built for comfort, really built with style
Specialist tradition, mama, let me feast my eyes

Talkin' 'bout love [X3]

Factory air-conditioned, heat begins to rise
Guaranteed to run for hours, mama it's a perfect size

Talkin' 'bout love [X3]

Groovin' on the freeway, gauge is on the red
Gun down on my gasoline, I believe I'm gonna crack a head.

Talkin' 'bout love [X3]
I can't stop talkin' about...

Come to me for service every hundred miles
Baby, let me check your points, fix your overdrive

Talkin' 'bout love [X3]

Fully automatic, comes in any size
Makes me wonder what I did, before we synchronized

Talkin' 'bout love [X3]

Feather-light suspension, Koni's couldn't hold
I'm so glad I took a look inside your showroom doors

Talkin' 'bout love [X3]

Oh, I can't stop talkin' about love. 

Key:
/ = slide
x = mute note

Into with the clav [with sweat picking]:
e-----------------------|
b-----------------------|
g----------3------------|
d----5-3-5---5-x-3-3-5--|
a-----------------------|
E-3---------------------| x 2

e-------------------------------------------------------------------------|
b-------------------------------------------------------------------------|
g----------3---------------------3--------------------3-------------------|
d----5-3-5---5-x-3-3-5-----5-3-5---5-x-3-3-5----5-3-5---5-x-3-3-5---------|
a-------------------------------------------------------------------------|
E-3----------------------3--------------------3---------------------------|
 greasy slicked down   groovy leather trim  like the way you hold the road

e-------------------------------------------------------------------------|
b-------------------------------------------------------------------------|
g----------3---------------------3--------------------3-------------------|
d----5-3-5---5-x-3-3-5-----5-3-5---5-x-3-3-5----5-3-5---5-x-3-3-5---------|
a-------------------------------------------------------------------------|
E-3----------------------3--------------------3---------------------------|
 ma it ain't no sin     talkn' bout love     talkn' bout love

e-----------------6------8---------------------------------------------------|
b---------------------------10-11--11----------------10-11--11---------------|
g--------------/7---7-/9--------------12-x-10-10-12------------12-x-10-10-12-|
d----------------------------------------------------------------------------|
a----------------------------------------------------------------------------|
E----------------------------------------------------------------------------|
 talkn' about..

rythem chages too:
e---------------------------------------------------------------------|
b---------------------------------------------------------------------|
g--2-3--3-------------------2-3--3---------------2-3--3---------------|
d--------5-x-3-3-5-----------------5-x-3-3-5------------5-x-3-3-5-----|
a---------------------------------------------------------------------|
E---------------------------------------------------------------------|
 grooving on the freeway,  gadges on the red,   gun down on my gasoline

e----------------------------------------------------------------------------|
b----------------------------------------------------------------------------|
g--2-3--3-----------------------------2-3--3---------------2-3--3------------|
d--------5-x-3-3-5--------------------------5-x-3-3-5--------------5-x-3-3-5-|
a----------------------------------------------------------------------------|
E----------------------------------------------------------------------------|
 belive i'm gonna crack your head    talkn' bout love     talkn' bout love

e-----------------6-------8--------11---------13----------------------------|
b---------------------------------------------------------------------------|
g--------------/7---7--/9---9--/12----12--/14-------------------------------|
d---------------------------------------------------------------------------|
a---------------------------------------------------------------------------|
E---------------------------------------------------------------------------|
 talkn' about..  [every couple of verses Jimmy throws in the 2 extra slides]

song repeats same pattern

Trampled Underfoot Tab


#----------------------------------PLEASE NOTE---------------------------------#
#This file is the author's own work and represents their interpretation of the #
#song. You may only use this file for private study, scholarship, or research. #
#------------------------------------------------------------------------------##
From: ceh1@acpub.duke.edu (Charles Eric Horowitz)

Trampled Underfoot by Led Zeppelin

There are only a few guitar parts essential to the song.
There are also some fills played with a wah-wah, but theyre
not that hard to figure out(though they are to remember).
There are several guitars doubling various parts of the song
and some have a wah-wah on them.

Heres the main riff:

e---------------------------------------------------------------------------
b-2-3-----------------------------------------------------------------------
g-2-3--2-3-0-------0--------------------------------------------------------
d------------3-0-3----------------------------------------------------------
a---------------------------------------------------------------------------
E---------------------------------------------------------------------------

And this ascending part:
[ Tab from: http://www.guitartabs.cc/tabs/l/led_zeppelin/trampled_underfoot_tab.html ]
e------5-5-5-------7-7-7---------10-10-10----------12-12-12-----------------
b---------------------------------------------------------------------------
g--4/6---------6/8---------9/11--------------11/13--------------------------
d---------------------------------------------------------------------------
a---------------------------------------------------------------------------
E---------------------------------------------------------------------------

And after that this is played:

e--11--11-------------------------11-11-------------------------------------
b--11--12--11-12------------------11-12-11-12-------------------------------
g-----------------12-10----10-12--------------12-10----10-12\---------------
d-----------------------12--------------------------12----------------------
a---------------------------------------------------------------------------
E---------------------------------------------------------------------------

And the chord before the keyboard solo and at the end of the song:

e---------------------------------------------------------------------------
b---------------------------------------------------------------------------
g---7-----------------------------------------------------------------------
d---5-----------------------------------------------------------------------
a---------------------------------------------------------------------------
E---------------------------------------------------------------------------

Thats really about it except for the wah-wah bits here and there.
Enjoy,
CHUCK


Tuesday, December 11, 2012

DiFFnet Would Like to Thank All of our Sponsors( THE Best Holiday Gifts)


                             

Rogersound Labs

    
         For The Audiofile ,The Best Ever Systems.
             The  Leader In Sound Technology !
SPEAKERS THAT MAGAZINES AND CUSTOMERS ARE RAVING ABOUT AT UNBEATABLE DIRECT PRICES!
                   Click Here For The Latest

 

For A Original And Truly Unique Gift ,Talk to Our Friend James  At 

                   DreamScapes Come True

                      dreamscapejames@gmail.com

Dreamscapes is a custom landscape design and installation company based in Los Angeles. For over 18 years we have been creating labors of love while providing our clients superior quality work at very affordable rates. We are passionate about every DreamScape especially when it involves the magic of a water feature. Whether formal or naturalistic, small or epic, tranquil or dynamic, nothing transforms an outdoor living space more than moving water.





 For The Art Lover
Ken Is One OF the COOLest
Soul's I have ever Met !

                                 

       About Kenneth A. Friedman & Co.
 
Kenneth A. Friedman & Co., a division of International Art Resources Inc. was established in the Los Angeles community of Calabasas in 1992. Our principal focus is specializing in fine prints, unique works on paper, and sculpture by Modern & Contemporary Masters.

In addition to being committed in assisting our clientele in all aspects of their collecting needs, we are also available for private, one on one consulting for the entry level collector as well as the long term seasoned collector.

With close to 21 years of experience in the Fine Art business domestically as well as internationally, we are recognized by many to be at the forefront of the industry and pride ourselves on integrity, reliability, and comprehensive customer service.  We are proud to have worked with numerous prestigious institutions such as the Los Angeles County Museum of Art in Los Angeles, The Museum of Contemporary Art in Los Angeles, The Museum of Modern Art in New York, the Deutsch Guggenheim in Berlin, Germany, The Lincoln Center for the Performing Arts in New York, The Missing Peace Project, a non-profit organization in Palo Alto California, among many others.

Our philosophy continues to be that of building long term relationships with our clients and being dedicated to providing the highest standards of ethics, connoisseurship and authorship and will do our very best to meet your individual needs and goals as they arise....